× Das Zimmer Über mich Suchen
Menü

Song: Der Root-Song [Niklas]

image Publiziert am 23.01.2021

Der Basslauf basiert auf Ideen von Marco Happ. Dieser Mix ist sozusagen die Quarantäne-Version des Songs und komplett von mir eingespielt. Eine Bandversion folgt, wenn alles besser wird.

Songtext

Die Winde reißen an dir und schwarzer Sand fliegt durch die Luft
Der Boden bebt, auf dem du stehst

Der Baum neben dir fällt zum Boden und kracht
Eine Endzeitmelodie, die dich ohnmächtig macht
Du fühlst dich so klein und allein wie noch nie
Atmest noch ein aus und holst dir die Energie

Mit deinen Wurzeln so tief
Und es strömt in dich hinein
Und du atmest wieder ein
Und du atmest wieder ein

Hitzeflimmern und das Gras ist wie Heu
Die Sonne ist dein Freund und einem Freund vergibt man

Mit dem Wasser ging das Leben
Kaum noch Hoffnung mehr auf den Regen
Doch aufzugeben ist nicht deine Strategie
Du atmest noch einmal aus und holst dir die Energie

Mit deinen Wurzeln so tief
Und es strömt in dich hinein
Und du atmest wieder ein
Und du atmest wieder ein

Du atmest ...

Ein neues Blatt löst sich und fliegt
Schaust hinterher und fühlst dich kahl
Bis es schließlich auf den Boden liegt
Doch es ist anders dieses Mal

Der Himmel färbt sich schwarz
Ein Geruch liegt in der Luft
Ein dicker Tropfen und dann Zwei
Fallen auf den trockenen Boden

Regen, Regen

Songstruktur

Akkorde:
Intro, Vers, Zwischenteil:
G, F

Energie / Du atmest:
Em, Csus2

Regen:
D, C

Tabs (Gitarre / Bass):
Intro:
|-------------------------------|-------------------------------|
|-------------------------------|-------------------------------|
|-------------------------------|-------------------------------|
5---5---5-------5---5-----------3---3---3-------3---3-----------|
5---5---5-------7---5-----------3---3---3-------2---3-----------|
3---3---3-------3---3-----------1---1---1-------1---1-----------|

1   u   2   u   3   u   4   u   1   u   2   u   3   u   4   u   1

|-------------------------------|-------------------------------|
|-------5---------------5-------|-------3---------------3-------|
|-------------------------------|-------------------------------|
3---3-------3---3---3-------3---1---1-------1---1---1-------1---|

1   u   2   u   3   u   4   u   1   u   2   u   3   u   4   u   1

Vers (die letzten vier Takte Oktavbass, wie Intro, s.o.):
|-------------------------------|-------------------------------|
|-------------------------------|-------------------------------|
|-------------------------------|-------------------------------|
3---3---3---3---3---3---3---3---1---1---1---1---1---1---1---1---|

Vers (Übergang letzter Energieteil, Triolen):
|-------------------------------|-------------------------------|
|-------5---------------5-------|-------3-------3T---2T---------|
|-------------------------------|-------------------------3T----|
3---3-------3---3---3-------3---1---1-------1-------------------0

Zwischenteil Vers:
|-------------------------------|-------------------------------|
|-------------------------------|-------------------------------|
|-------------------------------|-------------------------------|
5---5---5---5-----------5-5-----3---3---3---3-----------3--3----|
5---5---5---4-----------4-5-----3---3---3---2-----------2--3----|
3---3---3---3-----------3-3-----1---1---1---1-----------1--1----|

|-------------------------------|-------------------------------|
|-----------5-----------5-------|-----------3-----------3-------|
|-------------------------------|-------------------------------|
3---3---3-------3---3-------3---1---1---1-------1---1-------1---|

Melodie Vers (jeweils die letzten vier Takte):
|-------------------------------|-------------------------------|
|-------------------------------|-------------------------------|
|-------15-14-------12----------|---------------14--15--14--12--|
12------------------------------|-------------------------------|
|-------------------------------|-------------------------------|
|-------------------------------|-------------------------------|

Energie:
|-------------------------------|-------------------------------|
|-------------------------------|-------------------------------|
|-------------------------------3---------------/--(Slide)--12--|
0-------------------------------|-------------------------------|

"Ein neues Blatt löst sich" bzw. "Regen" (am Ende):
|-------------------------------|-------------------------------|
|-------------------------------|-------------------------------|
7-------7---7---5-------5---5---|---7---7---7---5-------5---5---|
7-------7---7---5-------5---5---|---7---7---7---5-------5---5---|
5-------5---5---3-------3---3---|---5---5---5---3-------3---3---|
--------------------------------|-------------------------------|

|-------------------------------|-------------------------------|
0-------0---0-------------------|---0---0---0-------------------|
|---------------3-------0---3---|---------------3-------0---3---|
|-------------------------------|-------------------------------|

"Der Himmel färbt sich schwarz":
|-------------------------------|-------------------------------|
|-------------------------------|-------------------------------|
|-------------------------------5-------5-------5---7---5-------|
2-------------------------------3-------5-------5---7---5-------|
2-------2---2---2---2---2---2---3-------3-------3---5---3-------|
0-------0---0---3---0---3---0---|---------------------------3---|

|-------------------------------|-------------------------------|
|-------------------------------|-------------------------------|
|-----------------------0---2---3-------3-------3---4---3-------|
0-------0---0---3---0-----------|---------------------------3---|

Übergang zu "Regen":
|-------------------------------|-------------------------------|
|-------------------------------|-------------------------------|
|-----------------------0---2---3-------3-------3---2---3---2---|
0-------0---0---3---0-----------|-------------------------------|

Ende:
|-------------------------------|-------------------------------|
|-------------------------------|-------------------------------|
|---7---7---7-------7---7---7---|---7---7---7-------7-----------|
|---7---7---7-------7---7---7---|---7---7---7-------7-----------2
|---5---5---5-------5---5---5---|---5---5---5-------5-----------2
|-------------------------------|-------------------------------0

|-------------------------------|-------------------------------|
|---0---0---0-------0---0---0---|---0---0---0-------0-----------|
|-------------------------------|-------------------------------|
|-------------------------------|-------------------------------0

Hinweis zum Drucken: Markieren -> Markierung drucken

Aufnahmeort: Wedemark, 2021


Noch keine Kommentare vorhanden



Kommentar schreiben