× Das Zimmer Über mich Suchen
Menü

Song: Haus aus Papier [Frank Rosenberger und Niklas]

Publiziert am 08.02.2022

Etwas über zwei Monate haben Frank und ich an dem Stück gearbeitet. Aus ersten Ideen entstanden Akkordfolgen, Melodien, ein Rhythmus und ein Text. Die Aufnahmen haben wir in unseren Wohnungen und ohne ein einziges echtes Treffen gemacht. Verrückte Zeiten sind das oder?

Cover image

Songtext

Bitte bitte, zieh deine Schuhe besser aus.
Das klingt jetzt etwas pingelig,
doch dieser Schmutz,
er geht nie wieder raus.

Da ist noch Platz an den Wänden
für einen Gruß und ein Gedicht.
Schreib herum um all die Knicke
und störe dich an den Falten nicht.

Die äußere Form ist nicht symmetrisch, nicht linear.
Ich war nie wirklich gut. Doch ich werde besser jedes Jahr.

In meinem Haus aus Papier ist noch ein Zimmer frei.
Doch manchmal fühl ich mich traurig, bis der Boden aufweicht.
Dann kommt die Hitze und das Wasser verdampft.
Und steht dann alles in Flammen, nehme ich ein neues Blatt und fange noch mal von vorne an.

Und das Lachen vom Zimmer nebenan,
es ist so laut, als wäre es meins.
Bunte Lichter werfen Schatten.
Und es riecht nach Jazzmusik.

Die Wand zerreißt vor unseren Augen
und wir feier nun zusammen.
Alles dreht sich und der Boden bebt.
Ein bunter Wirbel entsteht.

Die Farben kann man nicht beschreiben. Es ist nicht rot und auch nicht blau.
Ich streck die Hand aus, will es greifen. Ich tauche ab. Ich bin zu Hause.

In meinem Haus aus Papier ist noch ein Zimmer frei.
Doch manchmal fühl ich mich traurig, bis der Boden aufweicht.
Dann kommt die Hitze und das Wasser verdampft.
Und steht dann alles in Flammen, nehme ich ein neues Blatt und fange noch mal von vorne an.

Also erst einmal in der Mitte falten
und dann hier die Ecke genau auf Knick.
Dann umdrehen und zwei Mal diagonal falten.
Und wenn du jetzt das Blatt umdrehst, dann...

In meinem Haus aus Papier ist noch ein Zimmer frei.
Doch manchmal fühl ich mich traurig, bis der Boden aufweicht.
Dann kommt die Hitze und das Wasser verdampft.
Und steht dann alles in Flammen, nehme ich ein neues Blatt und fange noch mal von vorne an.

Songstruktur

Akkorde:              || Akkorde (Kappo 3):
                      ||
Intro:                || Intro: 
Cm | F | Cm | F       || Am | D | Am | D
Cm | F | G4 | G       || Am | D | E4 | E
                      || 
Vers 1:               || Vers 1:
Cm |   F  | Cm | F    || Am |   D  | Am | D
Cm |   F  | G4 | G    || Am |   D  | E4 | E
Cm |   F  | Cm | F    || Am |   D  | Am | D
Cm |   F  | G4 | G    || Am |   D  | E4 | E
Cm | Bb F | Eb | D    || Am | G D  | C  | B
Cm | Bb F | Eb | F    || Am | G D  | C  | D
                      || 
Refrain:              || Refrain:
Gm F | Eb | Bb | F    || Em* D | C | G  | D
Gm F | Eb | Cm | D    || Em  D | C | Am | B
Gm F | Eb | Bb | F    || Em  D | C | G  | D
Gm F | Eb | Cm | D    || Em  D | C | Am | B
                      || 
Instrumental:         || Instrumental:
Cm | F | Cm | F       || Am | D | Am | D
Cm | F | G4 | G       || Am | D | E4 | E
                      || 
Vers 2:               || Vers 2:
Cm |   F  | Cm | F    || Am |  D  | Am | D
Cm |   F  | G4 | G    || Am |  D  | E4 | E
Cm |   F  | Cm | F    || Am |  D  | Am | D
Cm |   F  | G4 | G    || Am |  D  | E4 | E
Cm | Bb F | Eb | D    || Am | G D | C  | B
Cm | Bb F | Eb | F    || Am | G D | C  | D
                      || 
Refrain:              || Refrain:
Gm F | Eb | Bb | F    || Em D | C | G  | D
Gm F | Eb | Cm | D    || Em D | C | Am | B
Gm F | Eb | Bb | F    || Em D | C | G  | D
Gm F | Eb | Cm | D    || Em D | C | Am | B
                      || 
Instrumental:         || Instrumental:
Gm | Gm | Bb C        || Em | Em | G C
Gm | Gm | Bb C        || Em | Em | G C
Gm | Gm | Bb C        || Em | Em | G C
Gm | Gm | Bb C | Eb F || Em | Em | G C | C D
                      || 
Solo:                 || Solo:
Gm F | Eb | Bb | F    || Em D | C | G  | D
Gm F | Eb | Cm | D    || Em D | C | Am | B
Gm F | Eb | Bb | F    || Em D | C | G  | D
Gm F | Eb | Cm | D    || Em D | C | Am | B
Gm F | Eb | Bb | F    || Em D | C | G  | D
Gm F | Eb | Cm | D    || Em D | C | Am | B
Gm F | Eb | Bb | F    || Em D | C | G  | D
Gm F | Eb | Cm | D    || Em D | C | Am | B
                      || 
Refrain:              || Refrain:
Gm F | Eb | Bb | F    || Em D | C | G  | D
Gm F | Eb | Cm | D    || Em D | C | Am | B
Gm F | Eb | Bb | F    || Em D | C | G  | D
Gm F | Eb | Cm | D    || Em D | C | Am | B
Gm                    || Em                      
*Spiele als D-Typ mit Barre+2

Melodie Gitarre Refrain:
|-------------------------------|-------------------------------
|-------------------------------|-------------------------------
|-------------------------------|-------------------------------
|-------------------------------|-------------------------------
|-------------------------------|-----------------------3-------
|-------------------------------|-------------------------------
1   u   2   u   3   u   4   u   1   u   2   u   3   u   4   u   

|-------------------------------|-------------------------------
|-------------------------------|-------------------------------
|-------------------------------|-------------------------------
|-------------------------------|-------------------------------
5---------------5---6---5---3---|---------------3---5---3-------
|-------------------------------|---------------------------6---
1   u   2   u   3   u   4   u   1   u   2   u   3   u   4   u   

|-------------------------------|-------------------------------
|-------------------------------|-------------------------------
|-------------------------------|-------------------------------
|-------------------------------|-------------------------------
|-------------------------------|-----------------------5-------
3-------------------5-------6---|-------------------------------
1   u   2   u   3   u   4   u   1   u   2   u   3   u   4   u   

|-------------------------------|-------------------------------
|-------------------------------|-------------------------------
|-------------------------------|-------------------------------
|-------------------------------|-------------------------------
3-------------------------------5---------------5---6---5---3---
|-------------------------------|-------------------------------
1   u   2   u   3   u   4   u   1   u   2   u   3   u   4   u  

|-------------------------------|-------------------------------
|-------------------------------|-------------------------------
|-------------------------------|-------------------------------
|-------------------------------|-------------------------------
|-------------------------------|-------------------------------
3-------------------5-------6---|-----------------------3---5---
1   u   2   u   3   u   4   u   1   u   2   u   3   u   4   u   

|-------------------------------|-------------------------------
|-------------------------------|-------------------------------
|-------------------------------|-------------------------------
|-------------------------------|-------------------------------
|-------5-------5---6---5---3---|---------------3---5---3-------
6-----------6-------------------|---------------------------6---
1   u   2   u   3   u   4   u   1   u   2   u   3   u   4   u    

|-------------------------------|-------------------------------
|-------------------------------|-------------------------------
|-------------------------------|-------------------------------
|-------------------------------|-------------------------------
|-------------------------------|-------------------------------
3-------------------5-------6---|-----------------------5-------
1   u   2   u   3   u   4   u   1   u   2   u   3   u   4   u   

|-------------------------------|-------------------------------
|-------------------------------|-------------------------------
|-------------------------------|-------------------------------
|-------------------------------|-------------------------------
3-------------------------------|-------5-----------5-------5---
|-------------------------------5---5-----------5-------5-------
1   u   2   u   3   u   4   u   1   u   2   u   3   u   4   u

Hinweis zum Drucken: Markieren -> Markierung drucken

Aufnahmeort: Hannover / Wedemark, November 2021 bis Februar 2022

1 weiteres Thema mit Frank Rosenberger

Kathrin:
Das ist ein ganz super cooles Lied geworden! Bleibt dran, Frank und Niklas! Text und Einspielung sind anspruchsvoll und hörenswert. Noch viele gute neue Ideen wünsche ich euch. Bleibt dran und genießt eure Musik. Ich jedenfalls werde in dem Haus aus Papier öfter gern euer Gast. - Liebe Grüße aus der Heimat. Kathrin
(10.02.2022, 10:34 Uhr)

Rainer:
Lieber Niklas, - mein schriftlicher Glückwunsch zu eurem Lied steht noch aus. Ich denke das es sehr gelungen ist. Ein angenehmes und schönes Lied, was eigentlich gefallen muß. - Man ahnt nur, wieviel Arbeit drin steckt. Glückwunsch an die Musiker. - Also weitermachen! - Gruß Rainer
(14.02.2022, 16:06 Uhr)



Kommentar schreiben