× Das Zimmer Über mich Suchen
Menü

Song: Feier [Niklas]

image Publiziert am 18.12.2020

Du sagst, dein Leben in der Kleinstadt
ist okay, doch es gibt mehr.
Jeden Tag, Hamster-Rad
und dein Herz ist leer.

Es gibt nicht viele Menschen,
die auch wirklich tun, was sie sagen,
ihre Taschen packen und den Schritt
durch die Tür wagen.

Heute Abend sind noch einmal
alle gekommen.
Musik ist laut und wir sind benommen
und in deinen Augen seh' ich ein Feuer.

Ich nenn es Feier, du nennst es auf wiedersehen.
Feier. Bleibt die Uhr für uns heut' stehen?
Feier. Bevor die Wege sich nun trennen.
Feier. Lass uns noch einmal brennen.

Unsere Stadt hat sich inzwischen
kaum verändert, kann man sagen.
Hier und da ein neues Haus,
bunte Farbe könnt's vertragen.

Nur die Schatten in den Augen
von den Menschen auf der Straße
sind vielleicht ein wenig dunkler
als noch vor ein paar Jahren.

Lass uns mal raus gehen
und sie zum Lachen bringen.
Mit Feuer in dem Herzen
die Kälte durchdringen, die Kälte durchdringen.

Ich nenn es Feier. Du nennst es in den Straßen singen.
Feier. Ganz offensiv den Hass bezwingen.
Feier. Fremde Leute zu umarmen.
Feier. Spontanität kann man nicht planen.

Gefahren gibt viele in jedem Land zu jeder Zeit,
dass Wut und Hass die Menschen auseinandertreibt.
Das Brennen tief in deinem Herzen blieb bisher unversehrt.
Beschütze es und mach', dass es sich weiter vermehrt.

Feier (5x).

Tabs:
Intro Gitarre:
|-------------------------------
|-------------------------------
|-------------------------------
|-------------------------------
0---2---3---4---5---6-----------
|-----------------------0-------
1   u   2   u   3   u   4   u  

Thema Vers Gitarre:
|-------------------------------|-------------------------------
|-------------------------------|-------------------10--8-------
9-----9-9-----9-9-----9-9-----9-9-----9-9-----9-9---9---7---9---
9-----9-9-----9-9-----9-9-----9-9-----9-9-----9-9---7---5---9---
7-----7-7-----7-7-----7-7-----7-7-----7-7-----7-7-----------7---
|-------------------------------|-------------------------------
1   u   2   u   3   u   4   u   1   u   2   u   3   u   4   u

Thema Vers Bass:
--------------------------------|-------------------------------
--------------------------------|-------------------------------
--------------------------------|-------------------0-----------
0---0---0---0---0---0---0---0---0---0---0---0---0-------3---0---
1   u   2   u   3   u   4   u   1   u   2   u   3   u   4   u

Vers 1 Gitarre (reduziert):
|-------------------------------|-------------------------------
|-------------------------------|-------------------10--8-------
|-------------------------------|---------------9---9---7---9---
|-------------------------------|---------------9---7---5---9---
|-------------------------------|---------------7-----------7---
|-------------------------------|-------------------------------
1   u   2   u   3   u   4   u   1   u   2   u   3   u   4   u

Chorus Gitarre:
|-------------------------------|----------(7)------------------
|-------------------------------|----------(7)------------------
|-------------------------------|-----------7-------------------
7---7-------5---7---7-------5---7---7-------7-------------------
7---7-------5---7---7-------5---7---7-------5-------------------
5---5-------3---5---5-------3---5---5---------------------------
1   u   2   u   3   u   4   u   1   u   2   u   3   u   4   u

Chorus Bass:
|-------------------------------|-------------------------------
|-------------------------------|-----------0-------------------
0---0-----------0---0-----------0---0---------------------------
|-----------3---------------3---|-------------------------------
1   u   2   u   3   u   4   u   1   u   2   u   3   u   4   u

Zwischenteil Gitarre (Bass spielt die unteren Töne):
|-------------------------------|-------------------------------
|-------------------------------|-------------------------------
|-------------------------------9---------------9---------------
|-------------------------------9-------2-------9-------2-------
0---2---3---4---5---6-----------7-------2-------7-------2-------
|-----------------------0-------|-------0---------------0-------
1   u   2   u   3   u   4   u   1   u   2   u   3   u   4   u   

Unisono-Zwischenteil Gitarre (Bass spielt die Grundtöne):
|-------------------------------|-------------------------------|---
|-------------------------------|-------------------------------|---
|-------------------------------9---------------9---------------9---
|-------------------------------9-------2-------9-------2-------9---
0---2---3---4---5---6-----------7-------2-------7-------2-------7---
|-----------------------0-------|-------0---------------0-------|---
1   u   2   u   3   u   4   u   1   u   2   u   3   u   4   u   1234

Bridge:
C#, A

Hinweis zum Drucken: Markieren -> Markierung drucken

Aufnahmeort: Wedemark, 2020

themenverwandt:
Song: Der öffentliche Nahverkehr


Noch keine Kommentare vorhanden



Kommentar schreiben