Song: Sonnenaufgang [Niklas, Jana Berwig, Simon]

image Publiziert am 28.02.2015
Ihre Augen blicken zum Himmel
Es ist noch dunkel. Wie lange noch?
Möwen rufen auch nachts
Sie spürt die Wellen - die Bewegung

Die ersten Lichter des Morgens funkeln im Meer
Sie sind golden und leuchten durch das klare Wasser
Sie hebt die Hand die Sonne blendet
Die Augen sind blind ...für Sekunden - der Geist ist blind ...seit Jahren

Sie wünschte du wärst geblieben
Sie wünschte du wärst bei ihr
Sie wünschte sie könnte deine Stimmer hören
Sie wünschte du wärst bei ihr

Sie spürt die Wellen, die Sonne tanzt hin und her
Es ist nicht tief, sie könnte stehen

Sie wünschte du wärst geblieben
Es ist nicht tief, sie könnte stehen
Sie wünschte, sie könnte deine Stimmer hören
Sie wünschte du wärst bei ihr

Chords Intro: Em, Cmaj7/E, Asus2/E, Cmaj7/E
Chords Vers/Zwischenteil: siehe Tabs unten
Chords Chorus: E5, C5, D5, A5 (siehe Tabs unten)
 Em   Cmaj7/E  Asus2/E
-0-     -0-     -0-
-0-     -0-     -0-
-0-     -0-     -2-
-2-     -2-     -2-
-2-     -3-     -0-
-0-     -0-     -0-
Gitarren Tabs clean:
e|---3-------3--------------------
h|--------------------------------
G|----------------2---------------
D|2--2----2--2----2-------2-------
A|2--2----3--3------------3-------
E|--------------------------------
Gitarren Tabs Zwischenteil verzerrt:
e|--------------------------------
h|00000000000000000000000000000000
G|00000000000000000000000000000000
D|22222222222222224444444422222222
A|22222222333333335555555533333333
E|0000000000000000----------------
Gitarren Tabs Chorus verzerrt:
e|--------------------------------
h|--------------------------------
G|--------5555555577777777--------
D|22222222555555557777777777777777
A|22222222333333335555555577777777
E|00000000----------------55555555
Bass Tabs Vers/Chorus:
G|-04------0-5------2--------2----
D|2-------2-------04-------2------
A|------------------------3-------
E|--------------------------------
  EGB     EG C    DF#A    CEA
Zwischenteil:
G|444444445555555522222222--------
D|--------------------------------
A|------------------------33333333
E|--------------------------------
  BBBBBBBBCCCCCCCCAAAAAAAACCCCCCCC
Schlagzeug: Simon
Gesang: Jana Berwig und Niklas
Komposition, Text, Aufnahme: Niklas
Weitere Informationen zur Liedersammlung "Bis zum Morgen" siehe unten.

themenverwandt:
Song: Der Sommer neben mir (Live und an der frischen Luft)
Song: Der Sommer neben mir
Song: In den Wellen
Song: Wir fliegen
Song: Bunt
Song: Bis zum Morgen
Blog: Bis zum Morgen

2 weitere Themen mit Jana Berwig
3 weitere Themen mit Simon
horizontal rule

Noch keine Kommentare vorhanden

horizontal rule
Kommentar schreiben
Zur Hauptseite
Nebenzimmer.de (2005 - 2017), Niklas Liebig (0.04 s)