× Das Zimmer Über mich Suchen
Menü

Song: Geisterstadt [Niklas]

image Publiziert am 02.04.2020

Der Motor ist aus. Ich wache auf der Rückbank auf.
Die anderen Sitze sind leer und ich bin allein.
Die Fenster beschlagen, ich blicke hinaus.
Ein mattes Licht fällt durch die Scheiben doch es wirft keine Schatten.

Und ich stehe in einer Geisterstadt
und ich schau auf die Uhr: Es ist Mitternacht.
Wer hat mich hier her gebracht?
Ich erinner mich deine Stimme. Du hat gelacht.

Schwerer Nebel drückt auf meinen Körper. Das Atmen fällt mir schwer.
Die Sicht vernebelt sich und ich sehe meine Füße nicht mehr.
Oder sind es Wolken? Oder, oder fliege ich?
Was mit mir passiert und wie lange bin ich schon hier?

Die Straßen sind leer und auch die Plätze der Stadt.
Nicht mal die Zeiger der Uhr bewegen sich. Noch immer Mitternacht.
Wer hat mich hier her gebracht?
Ich erinner mich an dein Gesicht. Es war blass.

Der Nebel weicht.
Ein Luftzug und die Sicht ist frei.
In diesem kalten Wind, spielst du das Königskind.

Du willst durch Hände gehen,
willst mit den Winden ziehen,
doch ich kann sich sehen.

Über die Welt aus der ich komme weißt du nur wenig
und deine Krone macht dich nicht zu meinem König.

Songstruktur:
Main Riff:		Em 2x
Chorus Picking:		H/Hsus4 | A/Asus4
Main Riff: 		Em 2x
Vers: 			Em | Asus2 4x
Prechorus:		Em 2x
Chorus:			H5 | A5 | Chorus Riff B | Chorus Riff B
Chorus Picking:		H/Hsus4 | A/Asus4
Main Riff:		Em 2x
Vers: 			Em | Asus2 4x
Prechorus:		Em 2x
Chorus:			H5 | A5 | Chorus Riff B | Chorus Riff B
Chorus Picking:		H/Hsus4 | A/Asus4
Bridge Picking:		C5 | D5 | A5 3x
			C5 | G5 | H5
Prechorus (fett):	Em 2x
Chorus:			H5 | A5 | Chorus Riff A | Chorus Riff A 2x
Main Riff: 		Em 3x

Ein paar Gitarren-Tabs:
Main Riff
|-------------------------------|-------------------------------
|-------------------------------|-------------------------------
|-----------0---------------3b4-|-------------------------------
|-------3-----------2-----------|-------------------------------
|---2-------------------2-------|-------------------------------
0-------------------------------|-------------------------------
1   u   2   u   3   u   4   u   1   u   2   u   3   u   4   u

Prechorus / Chorus Riff A (Gitarre 1)
|-------------------------------|-------------------------------
|-------------------------------|-------------------------------
|---------------3b4-------------|-------3b4-----3b4-----3b4-3b4-
2-------2---2---2-------2---2---|---2---2-------2-------2---2---
2-------2---2---2-------2---2---|---2---2-------2-------2---2---
0-------0---0---0-------0---0---|---0---0-------0-------0---0---
1   u   2   u   3   u   4   u   1   u   2   u   3   u   4   u

Chorus Riff B (Gitarre 1)
|-------------------------------|-------------------------------
|-------------------------------|-------4---0---4---0---4---0---
|---------------3b4-------------|-------------------------------
2-------2---2---2-------2---2---|---2---2---2---2---2---2---2---
2-------2---2---2-------2---2---|---2---2---2---2---2---2---2---
0-------0---0---0-------0---0---|---0---0---0---0---0---0---0---
1   u   2   u   3   u   4   u   1   u   2   u   3   u   4   u

Prechorus (Gitarre 2)
|-------------------------------|-------------------------------
17------17--17--17------17--17--|---17--17------17------17--17--
16------16--16--16------16--16--|---16--16------16------16--16--
14------14--14--14------14--14--|---14--14------14------14--14--
|-------------------------------|-------------------------------
|-------------------------------|-------------------------------
1   u   2   u   3   u   4   u   1   u   2   u   3   u   4   u

Chorus Picking
|-------------------------------|-------------------------------
|-----------4---------------5---|-----------4-------------------
|-------4-----------4-----------|---4---------------4-----------
|---4-------------------4-------|-------4---------------4-------
2-------------------------------|-------------------------------
|-------------------------------|-------------------------------
1   u   2   u   3   u   4   u   1   u   2   u   3   u   4   u

|-------------------------------|-------------------------------
|-----------2---------------3---|-----------2-------------------
|-------2-----------2-----------|---2---------------2-----------
|---2-------------------2-------|-------2---------------2-------
0-------------------------------|-------------------------------
|-------------------------------|-------------------------------
1   u   2   u   3   u   4   u   1   u   2   u   3   u   4   u

Hinweis zum Drucken: Markieren -> Markierung drucken

Aufnahmeort: Wedemark, März 2020


Niklas:
Im Januar 2020 breitete sich eine Viruserkrankung mit dem Namen COVID-19 zu einer weltweiten Pandemie aus. Als Auslöser der Krankheit gilt das Coronavirus SARS-CoV-2.
(02.04.2020, 23:47 Uhr)



Kommentar schreiben