Song: Bis zum Morgen [Niklas, Andrea, Jana Berwig, Simon]

image Publiziert am 27.05.2015

Keiner da außer uns - der weiße Mond spiegelt sich
Fast perfekt im glatten Wasser
Dort bei den Bäumen - ein dicker Ast hängt über'm Zaun
Wir beide klettern im Schatten der Blätter

Kommst du mit? Ins Freibad heute Nacht?
Kommst du mit? Falls du auch nicht schlafen magst
Kommst du mit? Ins Freibad heute Nacht?
Kommst du mit? Wir schwimmen durch die Nacht

Die Luft ist noch warm - von einem sonnigen Tag
Doch über uns ist jetzt schwarze Nacht
Wo Menschenmassen auf der Wiese liegen
Sind wir heute Nacht - ganz allein

Kommst du mit? Ins Freibad heute Nacht?
Kommst du mit? Falls du auch nicht schlafen magst
Kommst du mit? Ins Freibad heute Nacht?
Kommst du mit? Wir schwimmen durch die Nacht

Solo / Instrumentalteil

Bis zum Morgen, am Beckenrand
Bis zum Morgen, schwarzes Wasser
Wir Schwimmen durch die Nacht
Bis zum Morgen, bis zum Morgen

Akkorde Vers / Solo: Dm, Bb, Dm, Bb, Bb, A, A, A
Chorus: Dm, Bb, Csus2, C
Pause nach 1. Chorus: Dm, Bb, C
Akustikvarianten Chorus (statt Csus2 u. C): F u. C bzw. Am u. C bzw. F u. Am

Bass Tabs Intro:
G|------3-----|------3-----|3-----2-----|------------
D|0--023------|0--023------|------------|------------
A|------------|------------|------------|-----0------
E|------------|------------|------------|------------
Vers / Solo:
G|------------|------------|------------|------------
D|000000------|000000------|------------|------------
A|------111111|------111111|111111000000|000000000000
E|------------|------------|------------|------------
Chorus:
G|------------|------------|------------|------------
D|000000------|------------|000000------|------------
A|------111111|333333333334|------111111|333333333334
E|------------|------------|------------|------------
Zwischentöne nach Chorus:
G|------------|------------
D|0--0-------0|------------
A|----301--13-|3-----------
E|------------|------------
Hinweis zum Drucken: Markieren -> Markierung drucken


Gesang: Jana Berwig / Andrea und Niklas
Komposition, Text, Aufnahme: Niklas
Schlagzeug: Simon
Weitere Informationen zur Liedersammlung "Bis zum Morgen" siehe unten.

themenverwandt:
Song: Der Sommer neben mir (Live und an der frischen Luft)
Song: Der Sommer neben mir
Song: Sonnenaufgang
Song: In den Wellen
Song: Wir fliegen
Song: Bunt
Blog: Bis zum Morgen

13 weitere Themen mit Andrea
2 weitere Themen mit Jana Berwig
3 weitere Themen mit Simon
horizontal rule

Noch keine Kommentare vorhanden

horizontal rule
Kommentar schreiben
Zur Hauptseite
Nebenzimmer.de (2005 - 2017), Niklas Liebig (0.09 s)